ISO-10303-21;
HEADER;
/* Generated by software containing ST-Developer
 * from STEP Tools, Inc. (www.steptools.com) 
 */

FILE_DESCRIPTION(
/* description */ (
'Model CT-600S: includes welded stainless float ball and pipe nipple.'),

/* implementation_level */ '2;1');

FILE_NAME(
/* name */ 'G:\\CCC 3D Models Ref\\CT-600S.stp',
/* time_stamp */ '2017-10-12T08:48:43-04:00',
/* author */ ('GL'),
/* organization */ (
'Conveyor Components Company, Division of Material Control, Inc.'),
/* preprocessor_version */ 'ST-DEVELOPER v16.1',
/* originating_system */ 'Autodesk Inventor 2016',
/* authorisation */ 'GL');

FILE_SCHEMA (('CONFIG_CONTROL_DESIGN'));
ENDSEC;

DATA;
#10=MECHANICAL_DESIGN_GEOMETRIC_PRESENTATION_REPRESENTATION('',(#45,#46,
#47,#48),#410);
#11=ITEM_DEFINED_TRANSFORMATION($,$,#215,#239);
#12=ITEM_DEFINED_TRANSFORMATION($,$,#224,#240);
#13=ITEM_DEFINED_TRANSFORMATION($,$,#229,#241);
#14=ITEM_DEFINED_TRANSFORMATION($,$,#238,#254);
#15=ITEM_DEFINED_TRANSFORMATION($,$,#242,#255);
#16=(
REPRESENTATION_RELATIONSHIP($,$,#437,#440)
REPRESENTATION_RELATIONSHIP_WITH_TRANSFORMATION(#11)
SHAPE_REPRESENTATION_RELATIONSHIP()
);
#17=(
REPRESENTATION_RELATIONSHIP($,$,#438,#440)
REPRESENTATION_RELATIONSHIP_WITH_TRANSFORMATION(#12)
SHAPE_REPRESENTATION_RELATIONSHIP()
);
#18=(
REPRESENTATION_RELATIONSHIP($,$,#439,#440)
REPRESENTATION_RELATIONSHIP_WITH_TRANSFORMATION(#13)
SHAPE_REPRESENTATION_RELATIONSHIP()
);
#19=(
REPRESENTATION_RELATIONSHIP($,$,#440,#442)
REPRESENTATION_RELATIONSHIP_WITH_TRANSFORMATION(#14)
SHAPE_REPRESENTATION_RELATIONSHIP()
);
#20=(
REPRESENTATION_RELATIONSHIP($,$,#441,#442)
REPRESENTATION_RELATIONSHIP_WITH_TRANSFORMATION(#15)
SHAPE_REPRESENTATION_RELATIONSHIP()
);
#21=CONTEXT_DEPENDENT_SHAPE_REPRESENTATION(#16,#430);
#22=CONTEXT_DEPENDENT_SHAPE_REPRESENTATION(#17,#431);
#23=CONTEXT_DEPENDENT_SHAPE_REPRESENTATION(#18,#432);
#24=CONTEXT_DEPENDENT_SHAPE_REPRESENTATION(#19,#435);
#25=CONTEXT_DEPENDENT_SHAPE_REPRESENTATION(#20,#436);
#26=NEXT_ASSEMBLY_USAGE_OCCURRENCE('20027001_Welds:1',
'20027001_Welds:1','20027001_Welds:1',#447,#444,'20027001_Welds:1');
#27=NEXT_ASSEMBLY_USAGE_OCCURRENCE('20027001 BALL:1','20027001 BALL:1',
'20027001 BALL:1',#447,#445,'20027001 BALL:1');
#28=NEXT_ASSEMBLY_USAGE_OCCURRENCE('20027000 HALF COUPLING:2',
'20027000 HALF COUPLING:2','20027000 HALF COUPLING:2',#447,#446,
'20027000 HALF COUPLING:2');
#29=NEXT_ASSEMBLY_USAGE_OCCURRENCE('20027001:1','20027001:1',
'20027001:1',#449,#447,'20027001:1');
#30=NEXT_ASSEMBLY_USAGE_OCCURRENCE('20026616:1','20026616:1',
'20026616:1',#449,#448,'20026616:1');
#31=PLANE('',#233);
#32=PLANE('',#237);
#33=PLANE('',#246);
#34=PLANE('',#250);
#35=ORIENTED_CLOSED_SHELL('',*,#212,.F.);
#36=BREP_WITH_VOIDS('Solid1',#211,(#35));
#37=SHAPE_REPRESENTATION_RELATIONSHIP('SRR','None',#437,#41);
#38=SHAPE_REPRESENTATION_RELATIONSHIP('SRR','None',#438,#42);
#39=SHAPE_REPRESENTATION_RELATIONSHIP('SRR','None',#439,#43);
#40=SHAPE_REPRESENTATION_RELATIONSHIP('SRR','None',#441,#44);
#41=ADVANCED_BREP_SHAPE_REPRESENTATION('',(#49),#404);
#42=ADVANCED_BREP_SHAPE_REPRESENTATION('',(#36),#405);
#43=ADVANCED_BREP_SHAPE_REPRESENTATION('',(#50),#406);
#44=ADVANCED_BREP_SHAPE_REPRESENTATION('',(#51),#408);
#45=STYLED_ITEM('',(#472),#49);
#46=STYLED_ITEM('',(#471),#36);
#47=STYLED_ITEM('',(#471),#50);
#48=STYLED_ITEM('',(#471),#51);
#49=MANIFOLD_SOLID_BREP('Weld',#210);
#50=MANIFOLD_SOLID_BREP('Solid1',#213);
#51=MANIFOLD_SOLID_BREP('Solid1',#214);
#52=CONICAL_SURFACE('',#223,0.819908789185951,34.2459620434674);
#53=CONICAL_SURFACE('',#243,0.525,3.576);
#54=CONICAL_SURFACE('',#248,0.525,3.576);
#55=SPHERICAL_SURFACE('',#220,2.);
#56=SPHERICAL_SURFACE('',#225,2.);
#57=SPHERICAL_SURFACE('',#227,1.9641);
#58=FACE_BOUND('',#85,.T.);
#59=FACE_BOUND('',#87,.T.);
#60=FACE_BOUND('',#89,.T.);
#61=FACE_BOUND('',#93,.T.);
#62=FACE_BOUND('',#95,.T.);
#63=FACE_BOUND('',#97,.T.);
#64=FACE_BOUND('',#99,.T.);
#65=FACE_BOUND('',#101,.T.);
#66=FACE_BOUND('',#103,.T.);
#67=FACE_BOUND('',#105,.T.);
#68=FACE_BOUND('',#107,.T.);
#69=FACE_BOUND('',#109,.T.);
#70=FACE_OUTER_BOUND('',#84,.T.);
#71=FACE_OUTER_BOUND('',#86,.T.);
#72=FACE_OUTER_BOUND('',#88,.T.);
#73=FACE_OUTER_BOUND('',#90,.T.);
#74=FACE_OUTER_BOUND('',#91,.T.);
#75=FACE_OUTER_BOUND('',#92,.T.);
#76=FACE_OUTER_BOUND('',#94,.T.);
#77=FACE_OUTER_BOUND('',#96,.T.);
#78=FACE_OUTER_BOUND('',#98,.T.);
#79=FACE_OUTER_BOUND('',#100,.T.);
#80=FACE_OUTER_BOUND('',#102,.T.);
#81=FACE_OUTER_BOUND('',#104,.T.);
#82=FACE_OUTER_BOUND('',#106,.T.);
#83=FACE_OUTER_BOUND('',#108,.T.);
#84=EDGE_LOOP('',(#160));
#85=EDGE_LOOP('',(#161,#162));
#86=EDGE_LOOP('',(#163,#164));
#87=EDGE_LOOP('',(#165));
#88=EDGE_LOOP('',(#166,#167));
#89=EDGE_LOOP('',(#168,#169));
#90=EDGE_LOOP('',(#170,#171));
#91=EDGE_LOOP('',(#172,#173));
#92=EDGE_LOOP('',(#174));
#93=EDGE_LOOP('',(#175));
#94=EDGE_LOOP('',(#176));
#95=EDGE_LOOP('',(#177));
#96=EDGE_LOOP('',(#178));
#97=EDGE_LOOP('',(#179));
#98=EDGE_LOOP('',(#180));
#99=EDGE_LOOP('',(#181));
#100=EDGE_LOOP('',(#182));
#101=EDGE_LOOP('',(#183));
#102=EDGE_LOOP('',(#184));
#103=EDGE_LOOP('',(#185));
#104=EDGE_LOOP('',(#186));
#105=EDGE_LOOP('',(#187));
#106=EDGE_LOOP('',(#188));
#107=EDGE_LOOP('',(#189));
#108=EDGE_LOOP('',(#190));
#109=EDGE_LOOP('',(#191));
#110=CIRCLE('',#217,0.645);
#111=CIRCLE('',#218,0.645);
#112=CIRCLE('',#219,0.645);
#113=CIRCLE('',#221,0.819908789185951);
#114=CIRCLE('',#222,0.819908789185951);
#115=CIRCLE('',#226,2.);
#116=CIRCLE('',#228,1.9641);
#117=CIRCLE('',#231,0.645);
#118=CIRCLE('',#232,0.645);
#119=CIRCLE('',#234,0.495);
#120=CIRCLE('',#236,0.495);
#121=CIRCLE('',#244,0.478129394054371);
#122=CIRCLE('',#245,0.52181856130967);
#123=CIRCLE('',#247,0.392);
#124=CIRCLE('',#249,0.478129394054371);
#125=CIRCLE('',#251,0.392);
#126=VERTEX_POINT('',#340);
#127=VERTEX_POINT('',#342);
#128=VERTEX_POINT('',#343);
#129=VERTEX_POINT('',#347);
#130=VERTEX_POINT('',#348);
#131=VERTEX_POINT('',#355);
#132=VERTEX_POINT('',#356);
#133=VERTEX_POINT('',#359);
#134=VERTEX_POINT('',#360);
#135=VERTEX_POINT('',#363);
#136=VERTEX_POINT('',#365);
#137=VERTEX_POINT('',#368);
#138=VERTEX_POINT('',#371);
#139=VERTEX_POINT('',#380);
#140=VERTEX_POINT('',#382);
#141=VERTEX_POINT('',#385);
#142=VERTEX_POINT('',#388);
#143=VERTEX_POINT('',#391);
#144=EDGE_CURVE('',#126,#126,#110,.T.);
#145=EDGE_CURVE('',#127,#128,#111,.T.);
#146=EDGE_CURVE('',#128,#127,#112,.T.);
#147=EDGE_CURVE('',#129,#130,#113,.T.);
#148=EDGE_CURVE('',#130,#129,#114,.T.);
#149=EDGE_CURVE('',#131,#132,#115,.T.);
#150=EDGE_CURVE('',#133,#134,#116,.T.);
#151=EDGE_CURVE('',#135,#135,#117,.T.);
#152=EDGE_CURVE('',#136,#136,#118,.T.);
#153=EDGE_CURVE('',#137,#137,#119,.T.);
#154=EDGE_CURVE('',#138,#138,#120,.T.);
#155=EDGE_CURVE('',#139,#139,#121,.T.);
#156=EDGE_CURVE('',#140,#140,#122,.T.);
#157=EDGE_CURVE('',#141,#141,#123,.T.);
#158=EDGE_CURVE('',#142,#142,#124,.T.);
#159=EDGE_CURVE('',#143,#143,#125,.T.);
#160=ORIENTED_EDGE('',*,*,#144,.F.);
#161=ORIENTED_EDGE('',*,*,#145,.F.);
#162=ORIENTED_EDGE('',*,*,#146,.F.);
#163=ORIENTED_EDGE('',*,*,#147,.F.);
#164=ORIENTED_EDGE('',*,*,#148,.F.);
#165=ORIENTED_EDGE('',*,*,#144,.T.);
#166=ORIENTED_EDGE('',*,*,#147,.T.);
#167=ORIENTED_EDGE('',*,*,#148,.T.);
#168=ORIENTED_EDGE('',*,*,#145,.T.);
#169=ORIENTED_EDGE('',*,*,#146,.T.);
#170=ORIENTED_EDGE('',*,*,#149,.T.);
#171=ORIENTED_EDGE('',*,*,#149,.F.);
#172=ORIENTED_EDGE('',*,*,#150,.T.);
#173=ORIENTED_EDGE('',*,*,#150,.F.);
#174=ORIENTED_EDGE('',*,*,#151,.F.);
#175=ORIENTED_EDGE('',*,*,#152,.T.);
#176=ORIENTED_EDGE('',*,*,#151,.T.);
#177=ORIENTED_EDGE('',*,*,#153,.F.);
#178=ORIENTED_EDGE('',*,*,#154,.F.);
#179=ORIENTED_EDGE('',*,*,#153,.T.);
#180=ORIENTED_EDGE('',*,*,#152,.F.);
#181=ORIENTED_EDGE('',*,*,#154,.T.);
#182=ORIENTED_EDGE('',*,*,#155,.T.);
#183=ORIENTED_EDGE('',*,*,#156,.T.);
#184=ORIENTED_EDGE('',*,*,#155,.F.);
#185=ORIENTED_EDGE('',*,*,#157,.T.);
#186=ORIENTED_EDGE('',*,*,#158,.T.);
#187=ORIENTED_EDGE('',*,*,#156,.F.);
#188=ORIENTED_EDGE('',*,*,#158,.F.);
#189=ORIENTED_EDGE('',*,*,#159,.T.);
#190=ORIENTED_EDGE('',*,*,#157,.F.);
#191=ORIENTED_EDGE('',*,*,#159,.F.);
#192=CYLINDRICAL_SURFACE('',#216,0.645);
#193=CYLINDRICAL_SURFACE('',#230,0.645);
#194=CYLINDRICAL_SURFACE('',#235,0.495);
#195=CYLINDRICAL_SURFACE('',#252,0.392);
#196=ADVANCED_FACE('',(#70,#58),#192,.F.);
#197=ADVANCED_FACE('',(#71,#59),#55,.F.);
#198=ADVANCED_FACE('',(#72,#60),#52,.T.);
#199=ADVANCED_FACE('',(#73),#56,.T.);
#200=ADVANCED_FACE('',(#74),#57,.F.);
#201=ADVANCED_FACE('',(#75,#61),#193,.T.);
#202=ADVANCED_FACE('',(#76,#62),#31,.T.);
#203=ADVANCED_FACE('',(#77,#63),#194,.F.);
#204=ADVANCED_FACE('',(#78,#64),#32,.T.);
#205=ADVANCED_FACE('',(#79,#65),#53,.T.);
#206=ADVANCED_FACE('',(#80,#66),#33,.T.);
#207=ADVANCED_FACE('',(#81,#67),#54,.T.);
#208=ADVANCED_FACE('',(#82,#68),#34,.T.);
#209=ADVANCED_FACE('',(#83,#69),#195,.F.);
#210=CLOSED_SHELL('',(#196,#197,#198));
#211=CLOSED_SHELL('',(#199));
#212=CLOSED_SHELL('',(#200));
#213=CLOSED_SHELL('',(#201,#202,#203,#204));
#214=CLOSED_SHELL('',(#205,#206,#207,#208,#209));
#215=AXIS2_PLACEMENT_3D('placement',#338,#256,#257);
#216=AXIS2_PLACEMENT_3D('',#339,#258,#259);
#217=AXIS2_PLACEMENT_3D('',#341,#260,#261);
#218=AXIS2_PLACEMENT_3D('',#344,#262,#263);
#219=AXIS2_PLACEMENT_3D('',#345,#264,#265);
#220=AXIS2_PLACEMENT_3D('',#346,#266,#267);
#221=AXIS2_PLACEMENT_3D('',#349,#268,#269);
#222=AXIS2_PLACEMENT_3D('',#350,#270,#271);
#223=AXIS2_PLACEMENT_3D('',#351,#272,#273);
#224=AXIS2_PLACEMENT_3D('placement',#352,#274,#275);
#225=AXIS2_PLACEMENT_3D('',#353,#276,#277);
#226=AXIS2_PLACEMENT_3D('',#354,#278,#279);
#227=AXIS2_PLACEMENT_3D('',#357,#280,#281);
#228=AXIS2_PLACEMENT_3D('',#358,#282,#283);
#229=AXIS2_PLACEMENT_3D('placement',#361,#284,#285);
#230=AXIS2_PLACEMENT_3D('',#362,#286,#287);
#231=AXIS2_PLACEMENT_3D('',#364,#288,#289);
#232=AXIS2_PLACEMENT_3D('',#366,#290,#291);
#233=AXIS2_PLACEMENT_3D('',#367,#292,#293);
#234=AXIS2_PLACEMENT_3D('',#369,#294,#295);
#235=AXIS2_PLACEMENT_3D('',#370,#296,#297);
#236=AXIS2_PLACEMENT_3D('',#372,#298,#299);
#237=AXIS2_PLACEMENT_3D('',#373,#300,#301);
#238=AXIS2_PLACEMENT_3D('placement',#374,#302,#303);
#239=AXIS2_PLACEMENT_3D('',#375,#304,#305);
#240=AXIS2_PLACEMENT_3D('',#376,#306,#307);
#241=AXIS2_PLACEMENT_3D('',#377,#308,#309);
#242=AXIS2_PLACEMENT_3D('placement',#378,#310,#311);
#243=AXIS2_PLACEMENT_3D('',#379,#312,#313);
#244=AXIS2_PLACEMENT_3D('',#381,#314,#315);
#245=AXIS2_PLACEMENT_3D('',#383,#316,#317);
#246=AXIS2_PLACEMENT_3D('',#384,#318,#319);
#247=AXIS2_PLACEMENT_3D('',#386,#320,#321);
#248=AXIS2_PLACEMENT_3D('',#387,#322,#323);
#249=AXIS2_PLACEMENT_3D('',#389,#324,#325);
#250=AXIS2_PLACEMENT_3D('',#390,#326,#327);
#251=AXIS2_PLACEMENT_3D('',#392,#328,#329);
#252=AXIS2_PLACEMENT_3D('',#393,#330,#331);
#253=AXIS2_PLACEMENT_3D('placement',#394,#332,#333);
#254=AXIS2_PLACEMENT_3D('',#395,#334,#335);
#255=AXIS2_PLACEMENT_3D('',#396,#336,#337);
#256=DIRECTION('axis',(0.,0.,1.));
#257=DIRECTION('refdir',(1.,0.,0.));
#258=DIRECTION('center_axis',(1.,1.74728834284988E-16,-6.18511791043585E-18));
#259=DIRECTION('ref_axis',(1.74838271594513E-16,-0.999374065480474,0.0353762242901855));
#260=DIRECTION('center_axis',(1.,1.74728834284988E-16,-6.18511791043585E-18));
#261=DIRECTION('ref_axis',(0.,-0.999374065480474,0.0353762242901855));
#262=DIRECTION('center_axis',(-1.,-1.74728834284988E-16,6.18511791043585E-18));
#263=DIRECTION('ref_axis',(0.,-0.999374065480474,0.0353762242901855));
#264=DIRECTION('center_axis',(-1.,-1.74728834284988E-16,6.18511791043585E-18));
#265=DIRECTION('ref_axis',(0.,-0.999374065480474,0.0353762242901855));
#266=DIRECTION('center_axis',(6.12323399573677E-17,0.,1.));
#267=DIRECTION('ref_axis',(1.,0.,0.));
#268=DIRECTION('center_axis',(1.,1.74728834284988E-16,-6.18511791043585E-18));
#269=DIRECTION('ref_axis',(0.,-0.999374065480474,0.0353762242901855));
#270=DIRECTION('center_axis',(1.,1.74728834284988E-16,-6.18511791043585E-18));
#271=DIRECTION('ref_axis',(0.,-0.999374065480474,0.0353762242901855));
#272=DIRECTION('center_axis',(-1.,-1.74728834284988E-16,6.18511791043585E-18));
#273=DIRECTION('ref_axis',(5.13359332053112E-51,-0.999374065480474,0.0353762242901855));
#274=DIRECTION('axis',(0.,0.,1.));
#275=DIRECTION('refdir',(1.,0.,0.));
#276=DIRECTION('center_axis',(6.12323399573677E-17,0.,1.));
#277=DIRECTION('ref_axis',(1.,0.,0.));
#278=DIRECTION('center_axis',(0.,1.,0.));
#279=DIRECTION('ref_axis',(-6.12323399573677E-17,0.,-1.));
#280=DIRECTION('center_axis',(6.12323399573677E-17,0.,1.));
#281=DIRECTION('ref_axis',(1.,0.,0.));
#282=DIRECTION('center_axis',(0.,1.,0.));
#283=DIRECTION('ref_axis',(-6.12323399573677E-17,0.,-1.));
#284=DIRECTION('axis',(0.,0.,1.));
#285=DIRECTION('refdir',(1.,0.,0.));
#286=DIRECTION('center_axis',(1.,-1.74838271594513E-16,0.));
#287=DIRECTION('ref_axis',(1.74838271594513E-16,1.,0.));
#288=DIRECTION('center_axis',(1.,-1.74838271594513E-16,0.));
#289=DIRECTION('ref_axis',(1.74838271594513E-16,1.,0.));
#290=DIRECTION('center_axis',(1.,-1.74838271594513E-16,0.));
#291=DIRECTION('ref_axis',(1.74838271594513E-16,1.,0.));
#292=DIRECTION('center_axis',(1.,-1.74838271594513E-16,0.));
#293=DIRECTION('ref_axis',(0.,0.,-1.));
#294=DIRECTION('center_axis',(1.,-1.74838271594513E-16,0.));
#295=DIRECTION('ref_axis',(1.74838271594513E-16,1.,0.));
#296=DIRECTION('center_axis',(1.,-1.74838271594513E-16,0.));
#297=DIRECTION('ref_axis',(1.74838271594513E-16,1.,0.));
#298=DIRECTION('center_axis',(1.,-1.74838271594513E-16,0.));
#299=DIRECTION('ref_axis',(1.74838271594513E-16,1.,0.));
#300=DIRECTION('center_axis',(-1.,1.74838271594513E-16,0.));
#301=DIRECTION('ref_axis',(0.,0.,1.));
#302=DIRECTION('axis',(0.,0.,1.));
#303=DIRECTION('refdir',(1.,0.,0.));
#304=DIRECTION('',(0.,0.,1.));
#305=DIRECTION('',(1.,0.,0.));
#306=DIRECTION('',(0.,0.,1.));
#307=DIRECTION('',(1.,0.,0.));
#308=DIRECTION('',(0.,-0.0353762242901855,-0.999374065480474));
#309=DIRECTION('',(1.,0.,0.));
#310=DIRECTION('axis',(0.,0.,1.));
#311=DIRECTION('refdir',(1.,0.,0.));
#312=DIRECTION('center_axis',(-1.,0.,0.));
#313=DIRECTION('ref_axis',(0.,1.,0.));
#314=DIRECTION('center_axis',(-1.,0.,0.));
#315=DIRECTION('ref_axis',(0.,1.,0.));
#316=DIRECTION('center_axis',(1.,-1.22460635382238E-16,0.));
#317=DIRECTION('ref_axis',(-1.22460635382238E-16,-1.,0.));
#318=DIRECTION('center_axis',(1.,0.,0.));
#319=DIRECTION('ref_axis',(0.,0.,-1.));
#320=DIRECTION('center_axis',(-1.,0.,0.));
#321=DIRECTION('ref_axis',(0.,1.,0.));
#322=DIRECTION('center_axis',(1.,-1.22460635382238E-16,0.));
#323=DIRECTION('ref_axis',(-1.22460635382238E-16,-1.,0.));
#324=DIRECTION('center_axis',(1.,-1.22460635382238E-16,0.));
#325=DIRECTION('ref_axis',(-1.22460635382238E-16,-1.,0.));
#326=DIRECTION('center_axis',(-1.,1.22460635382238E-16,0.));
#327=DIRECTION('ref_axis',(0.,0.,-1.));
#328=DIRECTION('center_axis',(1.,-1.22460635382238E-16,0.));
#329=DIRECTION('ref_axis',(-1.22460635382238E-16,-1.,0.));
#330=DIRECTION('center_axis',(-1.,1.22460635382238E-16,0.));
#331=DIRECTION('ref_axis',(-1.22460635382238E-16,-1.,0.));
#332=DIRECTION('axis',(0.,0.,1.));
#333=DIRECTION('refdir',(1.,0.,0.));
#334=DIRECTION('',(0.,0.,1.));
#335=DIRECTION('',(1.,0.,0.));
#336=DIRECTION('',(5.16549001672764E-17,0.682100657373104,-0.73125829445633));
#337=DIRECTION('',(1.,8.49846633673225E-18,7.85655493794274E-17));
#338=CARTESIAN_POINT('',(0.,0.,0.));
#339=CARTESIAN_POINT('Origin',(2.325,6.55233128568703E-17,-2.31941921641344E-18));
#340=CARTESIAN_POINT('',(1.89313892781275,0.644596272234906,-0.0228176646671696));
#341=CARTESIAN_POINT('Origin',(1.89313892781275,-9.93526885947318E-18,3.51692435991962E-19));
#342=CARTESIAN_POINT('',(2.08113892781275,-0.644596272234906,0.0228176646671696));
#343=CARTESIAN_POINT('',(2.08113892781275,0.644596272234906,-0.0228176646671696));
#344=CARTESIAN_POINT('Origin',(2.08113892781275,2.29137519861045E-17,-8.11109731169976E-19));
#345=CARTESIAN_POINT('Origin',(2.08113892781275,2.29137519861045E-17,-8.11109731169976E-19));
#346=CARTESIAN_POINT('Origin',(0.,0.,0.));
#347=CARTESIAN_POINT('',(1.82421204288746,-0.819395579971937,0.0290052772237366));
#348=CARTESIAN_POINT('',(1.82421204288746,0.819395579971937,-0.0290052772237367));
#349=CARTESIAN_POINT('Origin',(1.82421204288746,-2.19787831133649E-17,7.78013346453935E-19));
#350=CARTESIAN_POINT('Origin',(1.82421204288746,-2.19787831133649E-17,7.78013346453935E-19));
#351=CARTESIAN_POINT('Origin',(1.82421204288746,-2.19787831133649E-17,7.78013346453935E-19));
#352=CARTESIAN_POINT('',(0.,0.,0.));
#353=CARTESIAN_POINT('Origin',(0.,0.,0.));
#354=CARTESIAN_POINT('Origin',(0.,0.,0.));
#355=CARTESIAN_POINT('',(-1.22464679914735E-16,0.,-2.));
#356=CARTESIAN_POINT('',(1.22464679914735E-16,0.,2.));
#357=CARTESIAN_POINT('Origin',(0.,0.,0.));
#358=CARTESIAN_POINT('Origin',(0.,0.,0.));
#359=CARTESIAN_POINT('',(-1.20266438910266E-16,0.,-1.9641));
#360=CARTESIAN_POINT('',(1.20266438910266E-16,0.,1.9641));
#361=CARTESIAN_POINT('',(0.,0.,0.));
#362=CARTESIAN_POINT('Origin',(0.375,-6.55643518479423E-17,0.));
#363=CARTESIAN_POINT('',(0.75,0.645,0.));
#364=CARTESIAN_POINT('Origin',(0.75,-1.31128703695885E-16,0.));
#365=CARTESIAN_POINT('',(-8.74191357972564E-17,0.645,0.));
#366=CARTESIAN_POINT('Origin',(-2.00189820975717E-16,3.50008422902094E-32,
0.));
#367=CARTESIAN_POINT('Origin',(0.75,0.57,0.));
#368=CARTESIAN_POINT('',(0.75,0.495,0.));
#369=CARTESIAN_POINT('Origin',(0.75,-1.31128703695885E-16,0.));
#370=CARTESIAN_POINT('Origin',(0.375,-6.55643518479423E-17,0.));
#371=CARTESIAN_POINT('',(0.,0.495,0.));
#372=CARTESIAN_POINT('Origin',(-8.65449444392839E-17,1.51313685010075E-32,
0.));
#373=CARTESIAN_POINT('Origin',(-4.37095678986282E-17,0.57,0.));
#374=CARTESIAN_POINT('',(0.,0.,0.));
#375=CARTESIAN_POINT('',(0.,0.,0.));
#376=CARTESIAN_POINT('',(0.,0.,0.));
#377=CARTESIAN_POINT('',(1.95,0.,0.));
#378=CARTESIAN_POINT('',(0.,0.,0.));
#379=CARTESIAN_POINT('Origin',(4.62617584362788,0.,0.));
#380=CARTESIAN_POINT('',(5.37617584362788,0.478129394054372,0.));
#381=CARTESIAN_POINT('Origin',(5.37617584362788,0.,0.));
#382=CARTESIAN_POINT('',(4.67708363476068,0.52181856130967,-3.5527136788005E-15));
#383=CARTESIAN_POINT('Origin',(4.67708363476068,0.,0.));
#384=CARTESIAN_POINT('Origin',(5.37617584362788,0.525,0.));
#385=CARTESIAN_POINT('',(5.37617584362788,0.392000000000001,0.));
#386=CARTESIAN_POINT('Origin',(5.37617584362788,0.,0.));
#387=CARTESIAN_POINT('Origin',(4.72799142589348,0.,0.));
#388=CARTESIAN_POINT('',(3.97799142589348,-0.478129394054372,0.));
#389=CARTESIAN_POINT('Origin',(3.97799142589348,0.,0.));
#390=CARTESIAN_POINT('Origin',(3.97799142589348,-0.525,0.));
#391=CARTESIAN_POINT('',(3.97799142589348,-0.392000000000001,0.));
#392=CARTESIAN_POINT('Origin',(3.97799142589348,0.,0.));
#393=CARTESIAN_POINT('Origin',(4.72799142589348,0.,0.));
#394=CARTESIAN_POINT('',(0.,0.,0.));
#395=CARTESIAN_POINT('',(0.,0.,0.));
#396=CARTESIAN_POINT('',(-0.0888286195339226,5.66877438469907E-16,3.00763881707625E-17));
#397=UNCERTAINTY_MEASURE_WITH_UNIT(LENGTH_MEASURE(0.000393700787401575),
#411,'DISTANCE_ACCURACY_VALUE',
'Maximum model space distance between geometric entities at asserted c
onnectivities');
#398=UNCERTAINTY_MEASURE_WITH_UNIT(LENGTH_MEASURE(0.000393700787401575),
#411,'DISTANCE_ACCURACY_VALUE',
'Maximum model space distance between geometric entities at asserted c
onnectivities');
#399=UNCERTAINTY_MEASURE_WITH_UNIT(LENGTH_MEASURE(0.000393700787401575),
#411,'DISTANCE_ACCURACY_VALUE',
'Maximum model space distance between geometric entities at asserted c
onnectivities');
#400=UNCERTAINTY_MEASURE_WITH_UNIT(LENGTH_MEASURE(0.000393700787401575),
#411,'DISTANCE_ACCURACY_VALUE',
'Maximum model space distance between geometric entities at asserted c
onnectivities');
#401=UNCERTAINTY_MEASURE_WITH_UNIT(LENGTH_MEASURE(0.000393700787401575),
#411,'DISTANCE_ACCURACY_VALUE',
'Maximum model space distance between geometric entities at asserted c
onnectivities');
#402=UNCERTAINTY_MEASURE_WITH_UNIT(LENGTH_MEASURE(0.000393700787401575),
#411,'DISTANCE_ACCURACY_VALUE',
'Maximum model space distance between geometric entities at asserted c
onnectivities');
#403=UNCERTAINTY_MEASURE_WITH_UNIT(LENGTH_MEASURE(1.E-6),#412,
'DISTANCE_ACCURACY_VALUE',
'Maximum model space distance between geometric entities at asserted c
onnectivities');
#404=(
GEOMETRIC_REPRESENTATION_CONTEXT(3)
GLOBAL_UNCERTAINTY_ASSIGNED_CONTEXT((#397))
GLOBAL_UNIT_ASSIGNED_CONTEXT((#411,#417,#414))
REPRESENTATION_CONTEXT('','3D')
);
#405=(
GEOMETRIC_REPRESENTATION_CONTEXT(3)
GLOBAL_UNCERTAINTY_ASSIGNED_CONTEXT((#398))
GLOBAL_UNIT_ASSIGNED_CONTEXT((#411,#417,#414))
REPRESENTATION_CONTEXT('','3D')
);
#406=(
GEOMETRIC_REPRESENTATION_CONTEXT(3)
GLOBAL_UNCERTAINTY_ASSIGNED_CONTEXT((#399))
GLOBAL_UNIT_ASSIGNED_CONTEXT((#411,#417,#414))
REPRESENTATION_CONTEXT('','3D')
);
#407=(
GEOMETRIC_REPRESENTATION_CONTEXT(3)
GLOBAL_UNCERTAINTY_ASSIGNED_CONTEXT((#400))
GLOBAL_UNIT_ASSIGNED_CONTEXT((#411,#417,#414))
REPRESENTATION_CONTEXT('','3D')
);
#408=(
GEOMETRIC_REPRESENTATION_CONTEXT(3)
GLOBAL_UNCERTAINTY_ASSIGNED_CONTEXT((#401))
GLOBAL_UNIT_ASSIGNED_CONTEXT((#411,#417,#414))
REPRESENTATION_CONTEXT('','3D')
);
#409=(
GEOMETRIC_REPRESENTATION_CONTEXT(3)
GLOBAL_UNCERTAINTY_ASSIGNED_CONTEXT((#402))
GLOBAL_UNIT_ASSIGNED_CONTEXT((#411,#417,#414))
REPRESENTATION_CONTEXT('','3D')
);
#410=(
GEOMETRIC_REPRESENTATION_CONTEXT(3)
GLOBAL_UNCERTAINTY_ASSIGNED_CONTEXT((#403))
GLOBAL_UNIT_ASSIGNED_CONTEXT((#412,#417,#414))
REPRESENTATION_CONTEXT('','3D')
);
#411=(
CONVERSION_BASED_UNIT('__CONSTANT UNIT inch',#413)
LENGTH_UNIT()
NAMED_UNIT(#416)
);
#412=(
LENGTH_UNIT()
NAMED_UNIT(*)
SI_UNIT(.MILLI.,.METRE.)
);
#413=LENGTH_MEASURE_WITH_UNIT(LENGTH_MEASURE(25.4),#412);
#414=(
NAMED_UNIT(*)
SI_UNIT($,.STERADIAN.)
SOLID_ANGLE_UNIT()
);
#415=DIMENSIONAL_EXPONENTS(0.,0.,0.,0.,0.,0.,0.);
#416=DIMENSIONAL_EXPONENTS(1.,0.,0.,0.,0.,0.,0.);
#417=(
CONVERSION_BASED_UNIT('degree',#419)
NAMED_UNIT(#415)
PLANE_ANGLE_UNIT()
);
#418=(
NAMED_UNIT(*)
PLANE_ANGLE_UNIT()
SI_UNIT($,.RADIAN.)
);
#419=PLANE_ANGLE_MEASURE_WITH_UNIT(PLANE_ANGLE_MEASURE(0.01745329252),#418);
#420=SHAPE_DEFINITION_REPRESENTATION(#426,#437);
#421=SHAPE_DEFINITION_REPRESENTATION(#427,#438);
#422=SHAPE_DEFINITION_REPRESENTATION(#428,#439);
#423=SHAPE_DEFINITION_REPRESENTATION(#429,#440);
#424=SHAPE_DEFINITION_REPRESENTATION(#433,#441);
#425=SHAPE_DEFINITION_REPRESENTATION(#434,#442);
#426=PRODUCT_DEFINITION_SHAPE('',$,#444);
#427=PRODUCT_DEFINITION_SHAPE('',$,#445);
#428=PRODUCT_DEFINITION_SHAPE('',$,#446);
#429=PRODUCT_DEFINITION_SHAPE('',$,#447);
#430=PRODUCT_DEFINITION_SHAPE($,$,#26);
#431=PRODUCT_DEFINITION_SHAPE($,$,#27);
#432=PRODUCT_DEFINITION_SHAPE($,$,#28);
#433=PRODUCT_DEFINITION_SHAPE('',$,#448);
#434=PRODUCT_DEFINITION_SHAPE('',$,#449);
#435=PRODUCT_DEFINITION_SHAPE($,$,#29);
#436=PRODUCT_DEFINITION_SHAPE($,$,#30);
#437=SHAPE_REPRESENTATION('',(#215),#404);
#438=SHAPE_REPRESENTATION('',(#224),#405);
#439=SHAPE_REPRESENTATION('',(#229),#406);
#440=SHAPE_REPRESENTATION('',(#238,#239,#240,#241),#407);
#441=SHAPE_REPRESENTATION('',(#242),#408);
#442=SHAPE_REPRESENTATION('',(#253,#254,#255),#409);
#443=DESIGN_CONTEXT('part definition',#463,'design');
#444=PRODUCT_DEFINITION('20027001_Welds','20027001_Welds',#450,#443);
#445=PRODUCT_DEFINITION('20027001 BALL','20027001 BALL',#451,#443);
#446=PRODUCT_DEFINITION('20027001 HALF COUPLING',
'20027001 HALF COUPLING',#452,#443);
#447=PRODUCT_DEFINITION('20027001','20027001',#453,#443);
#448=PRODUCT_DEFINITION('20026616','20026616',#454,#443);
#449=PRODUCT_DEFINITION('CT-600S','CT-600S',#455,#443);
#450=PRODUCT_DEFINITION_FORMATION('',$,#465);
#451=PRODUCT_DEFINITION_FORMATION('',$,#466);
#452=PRODUCT_DEFINITION_FORMATION('',$,#467);
#453=PRODUCT_DEFINITION_FORMATION('',$,#468);
#454=PRODUCT_DEFINITION_FORMATION('',$,#469);
#455=PRODUCT_DEFINITION_FORMATION('',$,#470);
#456=PRODUCT_RELATED_PRODUCT_CATEGORY('20027001_Welds','20027001_Welds',
(#465));
#457=PRODUCT_RELATED_PRODUCT_CATEGORY('20027001 BALL','20027001 BALL',(#466));
#458=PRODUCT_RELATED_PRODUCT_CATEGORY('20027001 HALF COUPLING',
'20027001 HALF COUPLING',(#467));
#459=PRODUCT_RELATED_PRODUCT_CATEGORY('20027001','20027001',(#468));
#460=PRODUCT_RELATED_PRODUCT_CATEGORY('20026616','20026616',(#469));
#461=PRODUCT_RELATED_PRODUCT_CATEGORY('CT-600S','CT-600S',(#470));
#462=APPLICATION_PROTOCOL_DEFINITION('international standard',
'ap203_configuration_controlled_3d_design_of_mechanical_parts_and_asse
mblies_mim_lf',2004,#463);
#463=APPLICATION_CONTEXT(
'Configuration Controlled 3D Design of Mechanical Parts and Assemblies');
#464=MECHANICAL_CONTEXT('part definition',#463,'mechanical');
#465=PRODUCT('20027001_Welds','20027001_Welds',$,(#464));
#466=PRODUCT('20027001 BALL','20027001 BALL',$,(#464));
#467=PRODUCT('20027001 HALF COUPLING','20027001 HALF COUPLING',$,(#464));
#468=PRODUCT('20027001','20027001',$,(#464));
#469=PRODUCT('20026616','20026616',$,(#464));
#470=PRODUCT('CT-600S','CT-600S',$,(#464));
#471=PRESENTATION_STYLE_ASSIGNMENT((#473));
#472=PRESENTATION_STYLE_ASSIGNMENT((#474));
#473=SURFACE_STYLE_USAGE(.BOTH.,#475);
#474=SURFACE_STYLE_USAGE(.BOTH.,#476);
#475=SURFACE_SIDE_STYLE('',(#477));
#476=SURFACE_SIDE_STYLE('',(#478));
#477=SURFACE_STYLE_FILL_AREA(#479);
#478=SURFACE_STYLE_FILL_AREA(#480);
#479=FILL_AREA_STYLE('',(#481));
#480=FILL_AREA_STYLE('',(#482));
#481=FILL_AREA_STYLE_COLOUR('',#483);
#482=FILL_AREA_STYLE_COLOUR('',#484);
#483=COLOUR_RGB('',0.752941176470588,0.752941176470588,0.752941176470588);
#484=COLOUR_RGB('',0.745098039215686,0.737254901960784,0.729411764705882);
ENDSEC;
END-ISO-10303-21;
