ISO-10303-21;
HEADER;
/****************************************************************
 * Generated by software with PDE/Lib inside                    *
 * PDElib Version v51a, created Thu 01/14/2010                  *
 * ITI Transcendata (http://www.transcendata.com/)              *
 ****************************************************************/
FILE_DESCRIPTION(('Model RS-23 Cable support double ended eyebolt.'),'2;1');
FILE_NAME('C:\\Documents and Settings\\George.2000-DOMAIN\\Desktop\\STEP files\\RS-23.stp','2010-10-26T15:58:58',('GL'),('Conveyor Components Company'),'Autodesk Inventor 2011','Autodesk Inventor 2011','GL');
FILE_SCHEMA(('AUTOMOTIVE_DESIGN { 1 0 10303 214 1 1 1 1 }'));
ENDSEC;
DATA;
#5=APPLICATION_CONTEXT('automotive design');
#6=APPLICATION_PROTOCOL_DEFINITION('International Standard','automotive_design',2001,#5);
#7=PRODUCT_CONTEXT('',#5,'mechanical');
#8=PRODUCT('RS-23','RS-23',$,(#7));
#9=PRODUCT_RELATED_PRODUCT_CATEGORY('part',$,(#8));
#10=PRODUCT_DEFINITION_FORMATION('',$,#8);
#11=PRODUCT_DEFINITION_CONTEXT('part definition',#5,'design');
#12=PRODUCT_DEFINITION('',$,#10,#11);
#18=(NAMED_UNIT(*)PLANE_ANGLE_UNIT()SI_UNIT($,.RADIAN.));
#19=DIMENSIONAL_EXPONENTS(0.0,0.0,0.0,0.0,0.0,0.0,0.0);
#20=PLANE_ANGLE_MEASURE_WITH_UNIT(PLANE_ANGLE_MEASURE(0.017453292500000),#18);
#24=(CONVERSION_BASED_UNIT('DEGREE',#20)NAMED_UNIT(#19)PLANE_ANGLE_UNIT());
#28=(NAMED_UNIT(*)SI_UNIT($,.STERADIAN.)SOLID_ANGLE_UNIT());
#32=(LENGTH_UNIT()NAMED_UNIT(*)SI_UNIT(.CENTI.,.METRE.));
#33=DIMENSIONAL_EXPONENTS(1.0,0.0,0.0,0.0,0.0,0.0,0.0);
#34=LENGTH_MEASURE_WITH_UNIT(LENGTH_MEASURE(2.540000000000000),#32);
#38=(CONVERSION_BASED_UNIT('INCH',#34)LENGTH_UNIT()NAMED_UNIT(#33));
#40=UNCERTAINTY_MEASURE_WITH_UNIT(LENGTH_MEASURE(0.000393700787402),#38,'DISTANCE_ACCURACY_VALUE','');
#42=(GEOMETRIC_REPRESENTATION_CONTEXT(3)GLOBAL_UNCERTAINTY_ASSIGNED_CONTEXT((#40))GLOBAL_UNIT_ASSIGNED_CONTEXT((#24,#28,#38))REPRESENTATION_CONTEXT('None','None'));
#43=AXIS2_PLACEMENT_3D('',#44,#45,#46);
#44=CARTESIAN_POINT('',(0.0,0.0,0.0));
#45=DIRECTION('',(0.0,0.0,1.0));
#46=DIRECTION('',(1.0,0.0,0.0));
#47=SHAPE_REPRESENTATION('',(#43),#42);
#48=PRODUCT_DEFINITION_SHAPE('','',#12);
#49=SHAPE_DEFINITION_REPRESENTATION(#48,#47);
#55=(NAMED_UNIT(*)PLANE_ANGLE_UNIT()SI_UNIT($,.RADIAN.));
#56=DIMENSIONAL_EXPONENTS(0.0,0.0,0.0,0.0,0.0,0.0,0.0);
#57=PLANE_ANGLE_MEASURE_WITH_UNIT(PLANE_ANGLE_MEASURE(0.017453292500000),#55);
#61=(CONVERSION_BASED_UNIT('DEGREE',#57)NAMED_UNIT(#56)PLANE_ANGLE_UNIT());
#65=(NAMED_UNIT(*)SI_UNIT($,.STERADIAN.)SOLID_ANGLE_UNIT());
#69=(LENGTH_UNIT()NAMED_UNIT(*)SI_UNIT(.MILLI.,.METRE.));
#71=UNCERTAINTY_MEASURE_WITH_UNIT(LENGTH_MEASURE(0.000001000000000),#69,'DISTANCE_ACCURACY_VALUE','');
#73=(GEOMETRIC_REPRESENTATION_CONTEXT(3)GLOBAL_UNCERTAINTY_ASSIGNED_CONTEXT((#71))GLOBAL_UNIT_ASSIGNED_CONTEXT((#61,#65,#69))REPRESENTATION_CONTEXT('','3D'));
#74=CARTESIAN_POINT('',(-0.866128437544727,6.268013102479683,0.0));
#75=DIRECTION('',(0.906492357972051,-0.422222222222222,0.0));
#76=DIRECTION('',(-0.422222222222222,-0.906492357972051,0.0));
#77=AXIS2_PLACEMENT_3D('',#74,#75,#76);
#78=CYLINDRICAL_SURFACE('',#77,0.156250000000000);
#79=CARTESIAN_POINT('',(-0.145504371909242,5.759996139810897,0.0));
#80=VERTEX_POINT('',#79);
#81=CARTESIAN_POINT('',(-0.079532149687017,5.901635570744029,0.0));
#82=DIRECTION('',(-0.906492357972051,0.422222222222221,0.0));
#83=DIRECTION('',(-0.422222222222221,-0.906492357972051,0.0));
#84=AXIS2_PLACEMENT_3D('',#81,#82,#83);
#85=CIRCLE('',#84,0.156250000000000);
#86=EDGE_CURVE('',#80,#80,#85,.T.);
#87=ORIENTED_EDGE('',*,*,#86,.T.);
#88=EDGE_LOOP('',(#87));
#89=FACE_OUTER_BOUND('',#88,.T.);
#90=CARTESIAN_POINT('',(-0.932100659766952,6.126373671546552,0.0));
#91=VERTEX_POINT('',#90);
#92=CARTESIAN_POINT('',(-0.866128437544727,6.268013102479683,0.0));
#93=DIRECTION('',(-0.906492357972051,0.422222222222221,0.0));
#94=DIRECTION('',(-0.422222222222221,-0.906492357972051,0.0));
#95=AXIS2_PLACEMENT_3D('',#92,#93,#94);
#96=CIRCLE('',#95,0.156250000000000);
#97=EDGE_CURVE('',#91,#91,#96,.T.);
#98=ORIENTED_EDGE('',*,*,#97,.F.);
#99=EDGE_LOOP('',(#98));
#100=FACE_BOUND('',#99,.T.);
#101=ADVANCED_FACE('',(#89,#100),#78,.T.);
#102=CARTESIAN_POINT('',(-1.116822881989174,5.729783264933778,0.0));
#103=DIRECTION('',(0.0,0.0,-1.0));
#104=DIRECTION('',(-1.0,0.0,0.0));
#105=AXIS2_PLACEMENT_3D('',#102,#103,#104);
#106=TOROIDAL_SURFACE('',#105,0.593750000000000,0.156250000000000);
#107=ORIENTED_EDGE('',*,*,#97,.T.);
#108=EDGE_LOOP('',(#107));
#109=FACE_OUTER_BOUND('',#108,.T.);
#110=CARTESIAN_POINT('',(-0.932100659766952,5.333192858321006,0.0));
#111=VERTEX_POINT('',#110);
#112=CARTESIAN_POINT('',(-0.866128437544731,5.191553427387873,0.0));
#113=DIRECTION('',(0.906492357972051,0.422222222222222,0.0));
#114=DIRECTION('',(-0.422222222222222,0.906492357972051,0.0));
#115=AXIS2_PLACEMENT_3D('',#112,#113,#114);
#116=CIRCLE('',#115,0.156250000000000);
#117=EDGE_CURVE('',#111,#111,#116,.T.);
#118=ORIENTED_EDGE('',*,*,#117,.F.);
#119=EDGE_LOOP('',(#118));
#120=FACE_BOUND('',#119,.T.);
#121=ADVANCED_FACE('',(#109,#120),#106,.T.);
#122=CARTESIAN_POINT('',(0.138859552314861,5.659652533412817,0.0));
#123=DIRECTION('',(-0.906492357972051,-0.422222222222222,0.0));
#124=DIRECTION('',(-0.422222222222222,0.906492357972051,0.0));
#125=AXIS2_PLACEMENT_3D('',#122,#123,#124);
#126=CYLINDRICAL_SURFACE('',#125,0.156250000000000);
#127=ORIENTED_EDGE('',*,*,#117,.T.);
#128=EDGE_LOOP('',(#127));
#129=FACE_OUTER_BOUND('',#128,.T.);
#130=CARTESIAN_POINT('',(0.072887330092638,5.801291964345950,0.0));
#131=VERTEX_POINT('',#130);
#132=CARTESIAN_POINT('',(0.138859552314861,5.659652533412817,0.0));
#133=DIRECTION('',(0.906492357972051,0.422222222222222,0.0));
#134=DIRECTION('',(-0.422222222222222,0.906492357972051,0.0));
#135=AXIS2_PLACEMENT_3D('',#132,#133,#134);
#136=CIRCLE('',#135,0.156250000000000);
#137=EDGE_CURVE('',#131,#131,#136,.T.);
#138=ORIENTED_EDGE('',*,*,#137,.F.);
#139=EDGE_LOOP('',(#138));
#140=FACE_BOUND('',#139,.T.);
#141=ADVANCED_FACE('',(#129,#140),#126,.T.);
#142=CARTESIAN_POINT('',(0.455526218981527,4.979783264933779,0.0));
#143=DIRECTION('',(0.0,0.0,1.0));
#144=DIRECTION('',(1.0,0.0,0.0));
#145=AXIS2_PLACEMENT_3D('',#142,#143,#144);
#146=TOROIDAL_SURFACE('',#145,0.750000000000000,0.156250000000000);
#147=ORIENTED_EDGE('',*,*,#137,.T.);
#148=EDGE_LOOP('',(#147));
#149=FACE_OUTER_BOUND('',#148,.T.);
#150=CARTESIAN_POINT('',(0.455526218981527,5.886033264933778,0.0));
#151=VERTEX_POINT('',#150);
#152=CARTESIAN_POINT('',(0.455526218981527,5.729783264933778,0.0));
#153=DIRECTION('',(1.0,0.0,0.0));
#154=DIRECTION('',(0.0,1.0,0.0));
#155=AXIS2_PLACEMENT_3D('',#152,#153,#154);
#156=CIRCLE('',#155,0.156250000000000);
#157=EDGE_CURVE('',#151,#151,#156,.T.);
#158=ORIENTED_EDGE('',*,*,#157,.F.);
#159=EDGE_LOOP('',(#158));
#160=FACE_BOUND('',#159,.T.);
#161=ADVANCED_FACE('',(#149,#160),#146,.T.);
#162=CARTESIAN_POINT('',(-0.079532149687020,5.901635570744029,0.0));
#163=DIRECTION('',(-0.906492357972051,0.422222222222222,0.0));
#164=DIRECTION('',(0.0,0.0,1.0));
#165=AXIS2_PLACEMENT_3D('',#162,#163,#164);
#166=PLANE('',#165);
#167=ORIENTED_EDGE('',*,*,#86,.F.);
#168=EDGE_LOOP('',(#167));
#169=FACE_OUTER_BOUND('',#168,.T.);
#170=ADVANCED_FACE('',(#169),#166,.F.);
#171=CARTESIAN_POINT('',(6.382482673566382,5.729783264933778,-0.538229837545906));
#172=DIRECTION('',(-0.906492357972051,2.585365E-017,0.422222222222222));
#173=DIRECTION('',(0.422222222222222,5.550665E-017,0.906492357972051));
#174=AXIS2_PLACEMENT_3D('',#171,#172,#173);
#175=CYLINDRICAL_SURFACE('',#174,0.156250000000000);
#176=CARTESIAN_POINT('',(5.661858607930892,5.729783264933778,-0.030212874877118));
#177=VERTEX_POINT('',#176);
#178=CARTESIAN_POINT('',(5.595886385708671,5.729783264933778,-0.171852305810251));
#179=DIRECTION('',(0.906492357972052,-2.585365E-017,-0.422222222222219));
#180=DIRECTION('',(0.422222222222219,5.550665E-017,0.906492357972052));
#181=AXIS2_PLACEMENT_3D('',#178,#179,#180);
#182=CIRCLE('',#181,0.156250000000000);
#183=EDGE_CURVE('',#177,#177,#182,.T.);
#184=ORIENTED_EDGE('',*,*,#183,.T.);
#185=EDGE_LOOP('',(#184));
#186=FACE_OUTER_BOUND('',#185,.T.);
#187=CARTESIAN_POINT('',(6.448454895788603,5.729783264933778,-0.396590406612773));
#188=VERTEX_POINT('',#187);
#189=CARTESIAN_POINT('',(6.382482673566382,5.729783264933778,-0.538229837545906));
#190=DIRECTION('',(0.906492357972052,-2.585365E-017,-0.422222222222219));
#191=DIRECTION('',(0.422222222222219,5.550665E-017,0.906492357972052));
#192=AXIS2_PLACEMENT_3D('',#189,#190,#191);
#193=CIRCLE('',#192,0.156250000000000);
#194=EDGE_CURVE('',#188,#188,#193,.T.);
#195=ORIENTED_EDGE('',*,*,#194,.F.);
#196=EDGE_LOOP('',(#195));
#197=FACE_BOUND('',#196,.T.);
#198=ADVANCED_FACE('',(#186,#197),#175,.T.);
#199=CARTESIAN_POINT('',(6.633177118010825,5.729783264933778,-4.440892E-016));
#200=DIRECTION('',(0.0,1.0,-6.123234E-017));
#201=DIRECTION('',(1.0,0.0,0.0));
#202=AXIS2_PLACEMENT_3D('',#199,#200,#201);
#203=TOROIDAL_SURFACE('',#202,0.593750000000000,0.156250000000000);
#204=ORIENTED_EDGE('',*,*,#194,.T.);
#205=EDGE_LOOP('',(#204));
#206=FACE_OUTER_BOUND('',#205,.T.);
#207=CARTESIAN_POINT('',(6.448454895788603,5.729783264933778,0.396590406612772));
#208=VERTEX_POINT('',#207);
#209=CARTESIAN_POINT('',(6.382482673566382,5.729783264933778,0.538229837545905));
#210=DIRECTION('',(-0.906492357972051,-2.585365E-017,-0.422222222222222));
#211=DIRECTION('',(0.422222222222222,-5.550665E-017,-0.906492357972051));
#212=AXIS2_PLACEMENT_3D('',#209,#210,#211);
#213=CIRCLE('',#212,0.156250000000000);
#214=EDGE_CURVE('',#208,#208,#213,.T.);
#215=ORIENTED_EDGE('',*,*,#214,.F.);
#216=EDGE_LOOP('',(#215));
#217=FACE_BOUND('',#216,.T.);
#218=ADVANCED_FACE('',(#206,#217),#203,.T.);
#219=CARTESIAN_POINT('',(5.377494683706791,5.729783264933778,0.070130731520961));
#220=DIRECTION('',(0.906492357972051,2.585365E-017,0.422222222222222));
#221=DIRECTION('',(0.422222222222222,-5.550665E-017,-0.906492357972051));
#222=AXIS2_PLACEMENT_3D('',#219,#220,#221);
#223=CYLINDRICAL_SURFACE('',#222,0.156250000000000);
#224=ORIENTED_EDGE('',*,*,#214,.T.);
#225=EDGE_LOOP('',(#224));
#226=FACE_OUTER_BOUND('',#225,.T.);
#227=CARTESIAN_POINT('',(5.443466905929015,5.729783264933778,-0.071508699412171));
#228=VERTEX_POINT('',#227);
#229=CARTESIAN_POINT('',(5.377494683706791,5.729783264933778,0.070130731520961));
#230=DIRECTION('',(-0.906492357972051,-2.585365E-017,-0.422222222222222));
#231=DIRECTION('',(0.422222222222222,-5.550665E-017,-0.906492357972051));
#232=AXIS2_PLACEMENT_3D('',#229,#230,#231);
#233=CIRCLE('',#232,0.156250000000000);
#234=EDGE_CURVE('',#228,#228,#233,.T.);
#235=ORIENTED_EDGE('',*,*,#234,.F.);
#236=EDGE_LOOP('',(#235));
#237=FACE_BOUND('',#236,.T.);
#238=ADVANCED_FACE('',(#226,#237),#223,.T.);
#239=CARTESIAN_POINT('',(5.060828017040125,5.729783264933778,0.750000000000000));
#240=DIRECTION('',(0.0,-1.0,6.123234E-017));
#241=DIRECTION('',(-1.0,0.0,0.0));
#242=AXIS2_PLACEMENT_3D('',#239,#240,#241);
#243=TOROIDAL_SURFACE('',#242,0.750000000000000,0.156250000000000);
#244=ORIENTED_EDGE('',*,*,#234,.T.);
#245=EDGE_LOOP('',(#244));
#246=FACE_OUTER_BOUND('',#245,.T.);
#247=CARTESIAN_POINT('',(5.060828017040125,5.729783264933778,-0.156250000000000));
#248=VERTEX_POINT('',#247);
#249=CARTESIAN_POINT('',(5.060828017040125,5.729783264933778,-4.440892E-016));
#250=DIRECTION('',(-1.0,0.0,0.0));
#251=DIRECTION('',(0.0,0.0,-1.0));
#252=AXIS2_PLACEMENT_3D('',#249,#250,#251);
#253=CIRCLE('',#252,0.156250000000000);
#254=EDGE_CURVE('',#248,#248,#253,.T.);
#255=ORIENTED_EDGE('',*,*,#254,.F.);
#256=EDGE_LOOP('',(#255));
#257=FACE_BOUND('',#256,.T.);
#258=ADVANCED_FACE('',(#246,#257),#243,.T.);
#259=CARTESIAN_POINT('',(1.282527118010826,5.729783264933778,0.0));
#260=DIRECTION('',(1.0,-3.900274E-033,-6.369630E-017));
#261=DIRECTION('',(0.0,0.0,-1.0));
#262=AXIS2_PLACEMENT_3D('',#259,#260,#261);
#263=CYLINDRICAL_SURFACE('',#262,0.156250000000000);
#264=ORIENTED_EDGE('',*,*,#157,.T.);
#265=EDGE_LOOP('',(#264));
#266=FACE_OUTER_BOUND('',#265,.T.);
#267=ORIENTED_EDGE('',*,*,#254,.T.);
#268=EDGE_LOOP('',(#267));
#269=FACE_BOUND('',#268,.T.);
#270=ADVANCED_FACE('',(#266,#269),#263,.T.);
#271=CARTESIAN_POINT('',(5.595886385708671,5.729783264933778,-0.171852305810251));
#272=DIRECTION('',(0.906492357972051,-2.585365E-017,-0.422222222222222));
#273=DIRECTION('',(0.0,-1.0,0.0));
#274=AXIS2_PLACEMENT_3D('',#271,#272,#273);
#275=PLANE('',#274);
#276=ORIENTED_EDGE('',*,*,#183,.F.);
#277=EDGE_LOOP('',(#276));
#278=FACE_OUTER_BOUND('',#277,.T.);
#279=ADVANCED_FACE('',(#278),#275,.F.);
#280=CLOSED_SHELL('',(#101,#121,#141,#161,#170,#198,#218,#238,#258,#270,#279));
#281=MANIFOLD_SOLID_BREP('Solid2',#280);
#282=COLOUR_RGB('Zinc',0.678430974483490,0.768626987934113,0.811765015125275);
#283=FILL_AREA_STYLE_COLOUR('Zinc',#282);
#284=FILL_AREA_STYLE('Zinc',(#283));
#285=SURFACE_STYLE_FILL_AREA(#284);
#286=SURFACE_SIDE_STYLE('Zinc',(#285));
#287=SURFACE_STYLE_USAGE(.BOTH.,#286);
#288=PRESENTATION_STYLE_ASSIGNMENT((#287));
#289=STYLED_ITEM('',(#288),#281);
#290=MECHANICAL_DESIGN_GEOMETRIC_PRESENTATION_REPRESENTATION('',(#289),#42);
#291=ADVANCED_BREP_SHAPE_REPRESENTATION('ABSR',(#281),#42);
#292=SHAPE_REPRESENTATION_RELATIONSHIP('SRR','None',#291,#47);
ENDSEC;
END-ISO-10303-21;
